ISO-10303-21;
HEADER;
FILE_DESCRIPTION (( 'STEP AP203' ),
    '1' );
FILE_NAME ('Q-AZHWP-12.7-355-M.STEP',
    '2020-12-22T09:06:56',
    ( '' ),
    ( '' ),
    'SwSTEP 2.0',
    'SolidWorks 2020',
    '' );
FILE_SCHEMA (( 'CONFIG_CONTROL_DESIGN' ));
ENDSEC;

DATA;
#1 = CARTESIAN_POINT ( 'NONE',  ( -1.614212418857619014, 0.000000000000000000, 0.000000000000000000 ) ) ;
#2 = DIRECTION ( 'NONE',  ( -1.000000000000000000, -0.000000000000000000, -0.000000000000000000 ) ) ;
#3 = DIRECTION ( 'NONE',  ( 0.000000000000000000, 0.000000000000000000, -1.000000000000000000 ) ) ;
#4 = CARTESIAN_POINT ( 'NONE',  ( -1.614212418857619014, 1.555301434917138433E-15, -12.69999999999999929 ) ) ;
#5 = DIRECTION ( 'NONE',  ( -1.000000000000000000, -0.000000000000000000, -0.000000000000000000 ) ) ;
#6 = CC_DESIGN_PERSON_AND_ORGANIZATION_ASSIGNMENT ( #95, #40, ( #86 ) ) ;
#7 = DIRECTION ( 'NONE',  ( 0.000000000000000000, 0.000000000000000000, 1.000000000000000000 ) ) ;
#8 = CIRCLE ( 'NONE', #161, 6.349999999999999645 ) ;
#9 = DIRECTION ( 'NONE',  ( -0.000000000000000000, 0.000000000000000000, 1.000000000000000000 ) ) ;
#10 = DIRECTION ( 'NONE',  ( 0.000000000000000000, 0.000000000000000000, 1.000000000000000000 ) ) ;
#11 = VERTEX_POINT ( 'NONE', #235 ) ;
#12 = CARTESIAN_POINT ( 'NONE',  ( -2.999999999999999556, 0.000000000000000000, 0.000000000000000000 ) ) ;
#13 = EDGE_LOOP ( 'NONE', ( #218, #190 ) ) ;
#14 = LOCAL_TIME ( 17, 6, 56.00000000000000000, #281 ) ;
#15 = PERSON_AND_ORGANIZATION ( #202, #311 ) ;
#16 = DIRECTION ( 'NONE',  ( 0.000000000000000000, 0.000000000000000000, -1.000000000000000000 ) ) ;
#17 = APPROVAL_DATE_TIME ( #327, #168 ) ;
#18 = CC_DESIGN_PERSON_AND_ORGANIZATION_ASSIGNMENT ( #222, #75, ( #127 ) ) ;
#19 = APPROVAL_ROLE ( '' ) ;
#20 = CARTESIAN_POINT ( 'NONE',  ( -1.500000000000000444, 7.776507174585692163E-16, -6.349999999999999645 ) ) ;
#21 = ORIENTED_EDGE ( 'NONE', *, *, #141, .F. ) ;
#22 = FACE_OUTER_BOUND ( 'NONE', #148, .T. ) ;
#23 = ADVANCED_FACE ( 'NONE', ( #206 ), #160, .F. ) ;
#24 = CIRCLE ( 'NONE', #111, 6.349999999999999645 ) ;
#25 = EDGE_LOOP ( 'NONE', ( #197, #266, #185, #178 ) ) ;
#26 = CIRCLE ( 'NONE', #71, 12.69999999999999929 ) ;
#27 = DIRECTION ( 'NONE',  ( -1.000000000000000000, -0.000000000000000000, -0.000000000000000000 ) ) ;
#28 = PLANE ( 'NONE',  #195 ) ;
#29 = CARTESIAN_POINT ( 'NONE',  ( 3.000000000000000888, 7.776507174585692163E-16, -6.349999999999999645 ) ) ;
#30 = VERTEX_POINT ( 'NONE', #54 ) ;
#31 = FACE_OUTER_BOUND ( 'NONE', #234, .T. ) ;
#32 = AXIS2_PLACEMENT_3D ( 'NONE', #66, #194, #181 ) ;
#33 = EDGE_CURVE ( 'NONE', #30, #72, #50, .T. ) ;
#34 = ORIENTED_EDGE ( 'NONE', *, *, #176, .F. ) ;
#35 = APPLICATION_PROTOCOL_DEFINITION ( 'international standard', 'config_control_design', 1994, #65 ) ;
#36 = CLOSED_SHELL ( 'NONE', ( #280, #23, #295, #93, #309, #41, #120, #77, #208, #232 ) ) ;
#37 = VERTEX_POINT ( 'NONE', #20 ) ;
#38 = CARTESIAN_POINT ( 'NONE',  ( 3.000000000000000000, 0.000000000000000000, 0.000000000000000000 ) ) ;
#39 = ORIENTED_EDGE ( 'NONE', *, *, #204, .T. ) ;
#40 = PERSON_AND_ORGANIZATION_ROLE ( 'creator' ) ;
#41 = ADVANCED_FACE ( 'NONE', ( #22 ), #80, .F. ) ;
#42 = APPROVAL_DATE_TIME ( #333, #100 ) ;
#43 = PRODUCT_DEFINITION_SHAPE ( 'NONE', 'NONE',  #86 ) ;
#44 = DATE_AND_TIME ( #200, #223 ) ;
#45 = DATE_AND_TIME ( #279, #271 ) ;
#46 = CARTESIAN_POINT ( 'NONE',  ( 1.500000000000000888, 0.000000000000000000, 6.349999999999999645 ) ) ;
#47 = CALENDAR_DATE ( 2020, 22, 12 ) ;
#48 = EDGE_CURVE ( 'NONE', #298, #30, #264, .T. ) ;
#49 = ORIENTED_EDGE ( 'NONE', *, *, #141, .T. ) ;
#50 = CIRCLE ( 'NONE', #155, 6.349999999999999645 ) ;
#51 = DIRECTION ( 'NONE',  ( -1.000000000000000000, -0.000000000000000000, -0.000000000000000000 ) ) ;
#52 = EDGE_CURVE ( 'NONE', #37, #326, #107, .T. ) ;
#53 =( GEOMETRIC_REPRESENTATION_CONTEXT ( 3 ) GLOBAL_UNCERTAINTY_ASSIGNED_CONTEXT ( ( #207 ) ) GLOBAL_UNIT_ASSIGNED_CONTEXT ( ( #113, #88, #316 ) ) REPRESENTATION_CONTEXT ( 'NONE', 'WORKASPACE' ) );
#54 = CARTESIAN_POINT ( 'NONE',  ( 1.500000000000000888, 7.776507174585692163E-16, -6.349999999999999645 ) ) ;
#55 = CIRCLE ( 'NONE', #96, 12.69999999999999929 ) ;
#56 = DIRECTION ( 'NONE',  ( 0.000000000000000000, 0.000000000000000000, 1.000000000000000000 ) ) ;
#57 = ORIENTED_EDGE ( 'NONE', *, *, #254, .F. ) ;
#58 = DIRECTION ( 'NONE',  ( -1.000000000000000000, -0.000000000000000000, -0.000000000000000000 ) ) ;
#59 = DIRECTION ( 'NONE',  ( 0.000000000000000000, 0.000000000000000000, 1.000000000000000000 ) ) ;
#60 = APPROVAL_PERSON_ORGANIZATION ( #173, #188, #300 ) ;
#61 = CYLINDRICAL_SURFACE ( 'NONE', #94, 6.349999999999999645 ) ;
#62 = FACE_OUTER_BOUND ( 'NONE', #260, .T. ) ;
#63 = EDGE_CURVE ( 'NONE', #174, #37, #24, .T. ) ;
#64 = AXIS2_PLACEMENT_3D ( 'NONE', #189, #252, #16 ) ;
#65 = APPLICATION_CONTEXT ( 'configuration controlled 3d designs of mechanical parts and assemblies' ) ;
#66 = CARTESIAN_POINT ( 'NONE',  ( 0.000000000000000000, 0.000000000000000000, 0.000000000000000000 ) ) ;
#67 = ORIENTED_EDGE ( 'NONE', *, *, #184, .F. ) ;
#68 = CARTESIAN_POINT ( 'NONE',  ( 3.000000000000000000, 0.000000000000000000, 0.000000000000000000 ) ) ;
#69 = ORIENTED_EDGE ( 'NONE', *, *, #254, .T. ) ;
#70 = SECURITY_CLASSIFICATION_LEVEL ( 'unclassified' ) ;
#71 = AXIS2_PLACEMENT_3D ( 'NONE', #38, #144, #191 ) ;
#72 = VERTEX_POINT ( 'NONE', #46 ) ;
#73 = COORDINATED_UNIVERSAL_TIME_OFFSET ( 8, 0, .AHEAD. ) ;
#74 = AXIS2_PLACEMENT_3D ( 'NONE', #259, #261, #133 ) ;
#75 = PERSON_AND_ORGANIZATION_ROLE ( 'design_supplier' ) ;
#76 = ORIENTED_EDGE ( 'NONE', *, *, #192, .T. ) ;
#77 = ADVANCED_FACE ( 'NONE', ( #103 ), #130, .T. ) ;
#78 = ORIENTED_EDGE ( 'NONE', *, *, #246, .F. ) ;
#79 = EDGE_LOOP ( 'NONE', ( #134, #39, #67, #332 ) ) ;
#80 = CYLINDRICAL_SURFACE ( 'NONE', #131, 6.349999999999999645 ) ;
#81 = CC_DESIGN_DATE_AND_TIME_ASSIGNMENT ( #157, #250, ( #152 ) ) ;
#82 = CIRCLE ( 'NONE', #236, 6.349999999999999645 ) ;
#83 = DIRECTION ( 'NONE',  ( -1.000000000000000000, -0.000000000000000000, -0.000000000000000000 ) ) ;
#84 = CARTESIAN_POINT ( 'NONE',  ( -1.614212418857619014, 0.000000000000000000, 6.349999999999999645 ) ) ;
#85 = FACE_OUTER_BOUND ( 'NONE', #79, .T. ) ;
#86 = PRODUCT_DEFINITION ( 'UNKNOWN', '', #127, #170 ) ;
#87 = AXIS2_PLACEMENT_3D ( 'NONE', #245, #167, #7 ) ;
#88 =( NAMED_UNIT ( * ) PLANE_ANGLE_UNIT ( ) SI_UNIT ( $, .RADIAN. ) );
#89 = DIRECTION ( 'NONE',  ( -1.000000000000000000, -0.000000000000000000, -0.000000000000000000 ) ) ;
#90 = ORIENTED_EDGE ( 'NONE', *, *, #243, .T. ) ;
#91 = CC_DESIGN_APPROVAL ( #188, ( #86 ) ) ;
#92 = ORIENTED_EDGE ( 'NONE', *, *, #192, .F. ) ;
#93 = ADVANCED_FACE ( 'NONE', ( #101 ), #182, .F. ) ;
#94 = AXIS2_PLACEMENT_3D ( 'NONE', #165, #123, #59 ) ;
#95 = PERSON_AND_ORGANIZATION ( #202, #311 ) ;
#96 = AXIS2_PLACEMENT_3D ( 'NONE', #237, #312, #267 ) ;
#97 = ORIENTED_EDGE ( 'NONE', *, *, #217, .T. ) ;
#98 = CIRCLE ( 'NONE', #269, 12.69999999999999929 ) ;
#99 = APPLICATION_CONTEXT ( 'configuration controlled 3d designs of mechanical parts and assemblies' ) ;
#100 = APPROVAL ( #175, 'UNSPECIFIED' ) ;
#101 = FACE_OUTER_BOUND ( 'NONE', #13, .T. ) ;
#102 = VERTEX_POINT ( 'NONE', #231 ) ;
#103 = FACE_OUTER_BOUND ( 'NONE', #224, .T. ) ;
#104 = CIRCLE ( 'NONE', #289, 6.349999999999999645 ) ;
#105 = DIRECTION ( 'NONE',  ( 1.000000000000000000, 0.000000000000000000, 0.000000000000000000 ) ) ;
#106 = DIRECTION ( 'NONE',  ( 0.000000000000000000, 0.000000000000000000, 1.000000000000000000 ) ) ;
#107 = LINE ( 'NONE', #209, #172 ) ;
#108 = AXIS2_PLACEMENT_3D ( 'NONE', #294, #27, #140 ) ;
#109 = CC_DESIGN_SECURITY_CLASSIFICATION ( #152, ( #127 ) ) ;
#110 = DIRECTION ( 'NONE',  ( 0.000000000000000000, 0.000000000000000000, 1.000000000000000000 ) ) ;
#111 = AXIS2_PLACEMENT_3D ( 'NONE', #158, #180, #282 ) ;
#112 = DIRECTION ( 'NONE',  ( 0.000000000000000000, 0.000000000000000000, 1.000000000000000000 ) ) ;
#113 =( LENGTH_UNIT ( ) NAMED_UNIT ( * ) SI_UNIT ( .MILLI., .METRE. ) );
#114 = FACE_BOUND ( 'NONE', #227, .T. ) ;
#115 = EDGE_CURVE ( 'NONE', #37, #174, #299, .T. ) ;
#116 = FACE_OUTER_BOUND ( 'NONE', #128, .T. ) ;
#117 = APPROVAL_PERSON_ORGANIZATION ( #15, #100, #19 ) ;
#118 = CARTESIAN_POINT ( 'NONE',  ( 3.000000000000000888, 0.000000000000000000, 0.000000000000000000 ) ) ;
#119 = CIRCLE ( 'NONE', #292, 12.69999999999999929 ) ;
#120 = ADVANCED_FACE ( 'NONE', ( #276, #293 ), #28, .F. ) ;
#121 = CYLINDRICAL_SURFACE ( 'NONE', #251, 12.69999999999999929 ) ;
#122 = AXIS2_PLACEMENT_3D ( 'NONE', #335, #105, #270 ) ;
#123 = DIRECTION ( 'NONE',  ( -1.000000000000000000, -0.000000000000000000, -0.000000000000000000 ) ) ;
#124 = APPLICATION_PROTOCOL_DEFINITION ( 'international standard', 'config_control_design', 1994, #99 ) ;
#125 = CARTESIAN_POINT ( 'NONE',  ( -1.614212418857619014, 0.000000000000000000, 6.349999999999999645 ) ) ;
#126 = PRODUCT_RELATED_PRODUCT_CATEGORY ( 'detail', '', ( #215 ) ) ;
#127 = PRODUCT_DEFINITION_FORMATION_WITH_SPECIFIED_SOURCE ( 'ANY', '', #215, .NOT_KNOWN. ) ;
#128 = EDGE_LOOP ( 'NONE', ( #329, #21, #138, #149 ) ) ;
#129 = COORDINATED_UNIVERSAL_TIME_OFFSET ( 8, 0, .AHEAD. ) ;
#130 = CYLINDRICAL_SURFACE ( 'NONE', #216, 12.69999999999999929 ) ;
#131 = AXIS2_PLACEMENT_3D ( 'NONE', #1, #51, #106 ) ;
#132 = ORIENTED_EDGE ( 'NONE', *, *, #204, .F. ) ;
#133 = DIRECTION ( 'NONE',  ( -0.000000000000000000, 0.000000000000000000, 1.000000000000000000 ) ) ;
#134 = ORIENTED_EDGE ( 'NONE', *, *, #246, .T. ) ;
#135 = ORIENTED_EDGE ( 'NONE', *, *, #143, .F. ) ;
#136 = CARTESIAN_POINT ( 'NONE',  ( 1.500000000000000888, 0.000000000000000000, 0.000000000000000000 ) ) ;
#137 = DIRECTION ( 'NONE',  ( -1.000000000000000000, -0.000000000000000000, -0.000000000000000000 ) ) ;
#138 = ORIENTED_EDGE ( 'NONE', *, *, #143, .T. ) ;
#139 = AXIS2_PLACEMENT_3D ( 'NONE', #334, #162, #308 ) ;
#140 = DIRECTION ( 'NONE',  ( 0.000000000000000000, 0.000000000000000000, 1.000000000000000000 ) ) ;
#141 = EDGE_CURVE ( 'NONE', #193, #298, #163, .T. ) ;
#142 = CARTESIAN_POINT ( 'NONE',  ( -3.000000000000000000, 6.349999999999999645, 0.000000000000000000 ) ) ;
#143 = EDGE_CURVE ( 'NONE', #193, #72, #315, .T. ) ;
#144 = DIRECTION ( 'NONE',  ( -1.000000000000000000, -0.000000000000000000, -0.000000000000000000 ) ) ;
#145 = CARTESIAN_POINT ( 'NONE',  ( -1.500000000000000444, 0.000000000000000000, 6.349999999999999645 ) ) ;
#146 = DIRECTION ( 'NONE',  ( 0.000000000000000000, 0.000000000000000000, 1.000000000000000000 ) ) ;
#147 = ADVANCED_BREP_SHAPE_REPRESENTATION ( 'Q-AZHWP-12.7-355-M', ( #166, #32 ), #53 ) ;
#148 = EDGE_LOOP ( 'NONE', ( #285, #323, #97, #69 ) ) ;
#149 = ORIENTED_EDGE ( 'NONE', *, *, #296, .T. ) ;
#150 = PERSON_AND_ORGANIZATION ( #202, #311 ) ;
#151 = CARTESIAN_POINT ( 'NONE',  ( -3.000000000000000000, 0.000000000000000000, 0.000000000000000000 ) ) ;
#152 = SECURITY_CLASSIFICATION ( '', '', #70 ) ;
#153 = ORIENTED_EDGE ( 'NONE', *, *, #63, .F. ) ;
#154 = SHAPE_DEFINITION_REPRESENTATION ( #43, #147 ) ;
#155 = AXIS2_PLACEMENT_3D ( 'NONE', #136, #257, #233 ) ;
#156 = PERSON_AND_ORGANIZATION ( #202, #311 ) ;
#157 = DATE_AND_TIME ( #277, #14 ) ;
#158 = CARTESIAN_POINT ( 'NONE',  ( -1.500000000000000444, 0.000000000000000000, 0.000000000000000000 ) ) ;
#159 = DIRECTION ( 'NONE',  ( -1.000000000000000000, -0.000000000000000000, -0.000000000000000000 ) ) ;
#160 = CYLINDRICAL_SURFACE ( 'NONE', #139, 6.349999999999999645 ) ;
#161 = AXIS2_PLACEMENT_3D ( 'NONE', #303, #328, #221 ) ;
#162 = DIRECTION ( 'NONE',  ( -1.000000000000000000, -0.000000000000000000, -0.000000000000000000 ) ) ;
#163 = CIRCLE ( 'NONE', #201, 6.349999999999999645 ) ;
#164 = CARTESIAN_POINT ( 'NONE',  ( 3.000000000000000888, 0.000000000000000000, 6.349999999999999645 ) ) ;
#165 = CARTESIAN_POINT ( 'NONE',  ( -1.614212418857619014, 0.000000000000000000, 0.000000000000000000 ) ) ;
#166 = MANIFOLD_SOLID_BREP ( 'Ðý×', #36 ) ;
#167 = DIRECTION ( 'NONE',  ( -1.000000000000000000, -0.000000000000000000, -0.000000000000000000 ) ) ;
#168 = APPROVAL ( #305, 'UNSPECIFIED' ) ;
#169 = APPROVAL_PERSON_ORGANIZATION ( #253, #168, #302 ) ;
#170 = DESIGN_CONTEXT ( 'detailed design', #99, 'design' ) ;
#171 = ORIENTED_EDGE ( 'NONE', *, *, #243, .F. ) ;
#172 = VECTOR ( 'NONE', #203, 1000.000000000000000 ) ;
#173 = PERSON_AND_ORGANIZATION ( #202, #311 ) ;
#174 = VERTEX_POINT ( 'NONE', #145 ) ;
#175 = APPROVAL_STATUS ( 'not_yet_approved' ) ;
#176 = EDGE_CURVE ( 'NONE', #229, #322, #55, .T. ) ;
#177 = APPROVAL_DATE_TIME ( #44, #188 ) ;
#178 = ORIENTED_EDGE ( 'NONE', *, *, #217, .F. ) ;
#179 = PERSON_AND_ORGANIZATION_ROLE ( 'classification_officer' ) ;
#180 = DIRECTION ( 'NONE',  ( 1.000000000000000000, 0.000000000000000000, 0.000000000000000000 ) ) ;
#181 = DIRECTION ( 'NONE',  ( 1.000000000000000000, 0.000000000000000000, 0.000000000000000000 ) ) ;
#182 = PLANE ( 'NONE',  #74 ) ;
#183 = ORIENTED_EDGE ( 'NONE', *, *, #48, .T. ) ;
#184 = EDGE_CURVE ( 'NONE', #322, #229, #98, .T. ) ;
#185 = ORIENTED_EDGE ( 'NONE', *, *, #317, .T. ) ;
#186 = CARTESIAN_POINT ( 'NONE',  ( -1.614212418857619014, 0.000000000000000000, 0.000000000000000000 ) ) ;
#187 = PLANE ( 'NONE',  #64 ) ;
#188 = APPROVAL ( #283, 'UNSPECIFIED' ) ;
#189 = CARTESIAN_POINT ( 'NONE',  ( -1.500000000000000444, 6.349999999999999645, 0.000000000000000000 ) ) ;
#190 = ORIENTED_EDGE ( 'NONE', *, *, #33, .F. ) ;
#191 = DIRECTION ( 'NONE',  ( 0.000000000000000000, 0.000000000000000000, 1.000000000000000000 ) ) ;
#192 = EDGE_CURVE ( 'NONE', #102, #11, #119, .T. ) ;
#193 = VERTEX_POINT ( 'NONE', #164 ) ;
#194 = DIRECTION ( 'NONE',  ( 0.000000000000000000, 0.000000000000000000, 1.000000000000000000 ) ) ;
#195 = AXIS2_PLACEMENT_3D ( 'NONE', #142, #211, #3 ) ;
#196 = LINE ( 'NONE', #291, #331 ) ;
#197 = ORIENTED_EDGE ( 'NONE', *, *, #63, .T. ) ;
#198 = PERSON_AND_ORGANIZATION_ROLE ( 'design_owner' ) ;
#199 = VECTOR ( 'NONE', #89, 1000.000000000000000 ) ;
#200 = CALENDAR_DATE ( 2020, 22, 12 ) ;
#201 = AXIS2_PLACEMENT_3D ( 'NONE', #118, #137, #110 ) ;
#202 = PERSON ( 'UNSPECIFIED', 'UNSPECIFIED', 'UNSPECIFIED', ('UNSPECIFIED'), ('UNSPECIFIED'), ('UNSPECIFIED') ) ;
#203 = DIRECTION ( 'NONE',  ( -1.000000000000000000, -0.000000000000000000, -0.000000000000000000 ) ) ;
#204 = EDGE_CURVE ( 'NONE', #102, #229, #210, .T. ) ;
#205 = CARTESIAN_POINT ( 'NONE',  ( -1.614212418857619014, 0.000000000000000000, 0.000000000000000000 ) ) ;
#206 = FACE_OUTER_BOUND ( 'NONE', #25, .T. ) ;
#207 = UNCERTAINTY_MEASURE_WITH_UNIT (LENGTH_MEASURE( 1.000000000000000082E-05 ), #113, 'distance_accuracy_value', 'NONE');
#208 = ADVANCED_FACE ( 'NONE', ( #62, #114 ), #265, .F. ) ;
#209 = CARTESIAN_POINT ( 'NONE',  ( -1.614212418857619014, 7.776507174585692163E-16, -6.349999999999999645 ) ) ;
#210 = LINE ( 'NONE', #4, #199 ) ;
#211 = DIRECTION ( 'NONE',  ( 1.000000000000000000, 0.000000000000000000, 0.000000000000000000 ) ) ;
#212 = CARTESIAN_POINT ( 'NONE',  ( -3.000000000000000000, 0.000000000000000000, 12.69999999999999929 ) ) ;
#213 = CARTESIAN_POINT ( 'NONE',  ( -2.999999999999999556, 7.776507174585692163E-16, -6.349999999999999645 ) ) ;
#214 = CARTESIAN_POINT ( 'NONE',  ( -3.000000000000000000, 1.555301434917138433E-15, -12.69999999999999929 ) ) ;
#215 = PRODUCT ( 'Q-AZHWP-12.7-355-M', 'Q-AZHWP-12.7-355-M', '', ( #220 ) ) ;
#216 = AXIS2_PLACEMENT_3D ( 'NONE', #205, #159, #226 ) ;
#217 = EDGE_CURVE ( 'NONE', #174, #310, #297, .T. ) ;
#218 = ORIENTED_EDGE ( 'NONE', *, *, #296, .F. ) ;
#219 = COORDINATED_UNIVERSAL_TIME_OFFSET ( 8, 0, .AHEAD. ) ;
#220 = MECHANICAL_CONTEXT ( 'NONE', #65, 'mechanical' ) ;
#221 = DIRECTION ( 'NONE',  ( 0.000000000000000000, 0.000000000000000000, 1.000000000000000000 ) ) ;
#222 = PERSON_AND_ORGANIZATION ( #202, #311 ) ;
#223 = LOCAL_TIME ( 17, 6, 56.00000000000000000, #73 ) ;
#224 = EDGE_LOOP ( 'NONE', ( #132, #76, #240, #34 ) ) ;
#225 = CALENDAR_DATE ( 2020, 22, 12 ) ;
#226 = DIRECTION ( 'NONE',  ( 0.000000000000000000, 0.000000000000000000, 1.000000000000000000 ) ) ;
#227 = EDGE_LOOP ( 'NONE', ( #49, #90 ) ) ;
#228 = CC_DESIGN_DATE_AND_TIME_ASSIGNMENT ( #45, #255, ( #86 ) ) ;
#229 = VERTEX_POINT ( 'NONE', #214 ) ;
#230 = VECTOR ( 'NONE', #290, 1000.000000000000000 ) ;
#231 = CARTESIAN_POINT ( 'NONE',  ( 3.000000000000000000, 1.555301434917138433E-15, -12.69999999999999929 ) ) ;
#232 = ADVANCED_FACE ( 'NONE', ( #321 ), #187, .F. ) ;
#233 = DIRECTION ( 'NONE',  ( 0.000000000000000000, 0.000000000000000000, 1.000000000000000000 ) ) ;
#234 = EDGE_LOOP ( 'NONE', ( #171, #183, #248, #135 ) ) ;
#235 = CARTESIAN_POINT ( 'NONE',  ( 3.000000000000000000, 0.000000000000000000, 12.69999999999999929 ) ) ;
#236 = AXIS2_PLACEMENT_3D ( 'NONE', #249, #268, #146 ) ;
#237 = CARTESIAN_POINT ( 'NONE',  ( -3.000000000000000000, 0.000000000000000000, 0.000000000000000000 ) ) ;
#238 = VECTOR ( 'NONE', #58, 1000.000000000000000 ) ;
#239 = DIRECTION ( 'NONE',  ( -1.000000000000000000, -0.000000000000000000, -0.000000000000000000 ) ) ;
#240 = ORIENTED_EDGE ( 'NONE', *, *, #244, .T. ) ;
#241 = CARTESIAN_POINT ( 'NONE',  ( -2.999999999999999556, 0.000000000000000000, 6.349999999999999645 ) ) ;
#242 = CARTESIAN_POINT ( 'NONE',  ( 3.000000000000000000, 12.69999999999999929, 0.000000000000000000 ) ) ;
#243 = EDGE_CURVE ( 'NONE', #298, #193, #8, .T. ) ;
#244 = EDGE_CURVE ( 'NONE', #11, #322, #196, .T. ) ;
#245 = CARTESIAN_POINT ( 'NONE',  ( -2.999999999999999556, 0.000000000000000000, 0.000000000000000000 ) ) ;
#246 = EDGE_CURVE ( 'NONE', #11, #102, #26, .T. ) ;
#247 = DIRECTION ( 'NONE',  ( -1.000000000000000000, -0.000000000000000000, -0.000000000000000000 ) ) ;
#248 = ORIENTED_EDGE ( 'NONE', *, *, #33, .T. ) ;
#249 = CARTESIAN_POINT ( 'NONE',  ( 1.500000000000000888, 0.000000000000000000, 0.000000000000000000 ) ) ;
#250 = DATE_TIME_ROLE ( 'classification_date' ) ;
#251 = AXIS2_PLACEMENT_3D ( 'NONE', #186, #247, #319 ) ;
#252 = DIRECTION ( 'NONE',  ( 1.000000000000000000, 0.000000000000000000, 0.000000000000000000 ) ) ;
#253 = PERSON_AND_ORGANIZATION ( #202, #311 ) ;
#254 = EDGE_CURVE ( 'NONE', #310, #326, #284, .T. ) ;
#255 = DATE_TIME_ROLE ( 'creation_date' ) ;
#256 = LOCAL_TIME ( 17, 6, 56.00000000000000000, #219 ) ;
#257 = DIRECTION ( 'NONE',  ( -1.000000000000000000, -0.000000000000000000, -0.000000000000000000 ) ) ;
#258 = PERSON_AND_ORGANIZATION ( #202, #311 ) ;
#259 = CARTESIAN_POINT ( 'NONE',  ( 1.500000000000000444, 6.349999999999999645, 0.000000000000000000 ) ) ;
#260 = EDGE_LOOP ( 'NONE', ( #78, #92 ) ) ;
#261 = DIRECTION ( 'NONE',  ( -1.000000000000000000, 0.000000000000000000, -0.000000000000000000 ) ) ;
#262 = CC_DESIGN_PERSON_AND_ORGANIZATION_ASSIGNMENT ( #258, #198, ( #215 ) ) ;
#263 = LOCAL_TIME ( 17, 6, 56.00000000000000000, #129 ) ;
#264 = LINE ( 'NONE', #306, #286 ) ;
#265 = PLANE ( 'NONE',  #318 ) ;
#266 = ORIENTED_EDGE ( 'NONE', *, *, #52, .T. ) ;
#267 = DIRECTION ( 'NONE',  ( 0.000000000000000000, 0.000000000000000000, 1.000000000000000000 ) ) ;
#268 = DIRECTION ( 'NONE',  ( -1.000000000000000000, -0.000000000000000000, -0.000000000000000000 ) ) ;
#269 = AXIS2_PLACEMENT_3D ( 'NONE', #151, #83, #112 ) ;
#270 = DIRECTION ( 'NONE',  ( 0.000000000000000000, 0.000000000000000000, -1.000000000000000000 ) ) ;
#271 = LOCAL_TIME ( 17, 6, 56.00000000000000000, #330 ) ;
#272 = ORIENTED_EDGE ( 'NONE', *, *, #317, .F. ) ;
#273 = ORIENTED_EDGE ( 'NONE', *, *, #176, .T. ) ;
#274 = EDGE_LOOP ( 'NONE', ( #287, #273 ) ) ;
#275 = PERSON_AND_ORGANIZATION_ROLE ( 'creator' ) ;
#276 = FACE_BOUND ( 'NONE', #301, .T. ) ;
#277 = CALENDAR_DATE ( 2020, 22, 12 ) ;
#278 = CC_DESIGN_APPROVAL ( #168, ( #127 ) ) ;
#279 = CALENDAR_DATE ( 2020, 22, 12 ) ;
#280 = ADVANCED_FACE ( 'NONE', ( #85 ), #121, .T. ) ;
#281 = COORDINATED_UNIVERSAL_TIME_OFFSET ( 8, 0, .AHEAD. ) ;
#282 = DIRECTION ( 'NONE',  ( 0.000000000000000000, 0.000000000000000000, -1.000000000000000000 ) ) ;
#283 = APPROVAL_STATUS ( 'not_yet_approved' ) ;
#284 = CIRCLE ( 'NONE', #87, 6.349999999999999645 ) ;
#285 = ORIENTED_EDGE ( 'NONE', *, *, #52, .F. ) ;
#286 = VECTOR ( 'NONE', #2, 1000.000000000000000 ) ;
#287 = ORIENTED_EDGE ( 'NONE', *, *, #184, .T. ) ;
#288 = CC_DESIGN_PERSON_AND_ORGANIZATION_ASSIGNMENT ( #150, #179, ( #152 ) ) ;
#289 = AXIS2_PLACEMENT_3D ( 'NONE', #12, #239, #10 ) ;
#290 = DIRECTION ( 'NONE',  ( -1.000000000000000000, -0.000000000000000000, -0.000000000000000000 ) ) ;
#291 = CARTESIAN_POINT ( 'NONE',  ( -1.614212418857619014, 0.000000000000000000, 12.69999999999999929 ) ) ;
#292 = AXIS2_PLACEMENT_3D ( 'NONE', #68, #5, #56 ) ;
#293 = FACE_OUTER_BOUND ( 'NONE', #274, .T. ) ;
#294 = CARTESIAN_POINT ( 'NONE',  ( -1.614212418857619014, 0.000000000000000000, 0.000000000000000000 ) ) ;
#295 = ADVANCED_FACE ( 'NONE', ( #31 ), #61, .F. ) ;
#296 = EDGE_CURVE ( 'NONE', #72, #30, #82, .T. ) ;
#297 = LINE ( 'NONE', #84, #230 ) ;
#298 = VERTEX_POINT ( 'NONE', #29 ) ;
#299 = CIRCLE ( 'NONE', #122, 6.349999999999999645 ) ;
#300 = APPROVAL_ROLE ( '' ) ;
#301 = EDGE_LOOP ( 'NONE', ( #57, #272 ) ) ;
#302 = APPROVAL_ROLE ( '' ) ;
#303 = CARTESIAN_POINT ( 'NONE',  ( 3.000000000000000888, 0.000000000000000000, 0.000000000000000000 ) ) ;
#304 = ORIENTED_EDGE ( 'NONE', *, *, #115, .F. ) ;
#305 = APPROVAL_STATUS ( 'not_yet_approved' ) ;
#306 = CARTESIAN_POINT ( 'NONE',  ( -1.614212418857619014, 7.776507174585692163E-16, -6.349999999999999645 ) ) ;
#307 = EDGE_LOOP ( 'NONE', ( #153, #304 ) ) ;
#308 = DIRECTION ( 'NONE',  ( 0.000000000000000000, 0.000000000000000000, 1.000000000000000000 ) ) ;
#309 = ADVANCED_FACE ( 'NONE', ( #116 ), #324, .F. ) ;
#310 = VERTEX_POINT ( 'NONE', #241 ) ;
#311 = ORGANIZATION ( 'UNSPECIFIED', 'UNSPECIFIED', '' ) ;
#312 = DIRECTION ( 'NONE',  ( -1.000000000000000000, -0.000000000000000000, -0.000000000000000000 ) ) ;
#313 = DIRECTION ( 'NONE',  ( -1.000000000000000000, 0.000000000000000000, -0.000000000000000000 ) ) ;
#314 = DIRECTION ( 'NONE',  ( -1.000000000000000000, -0.000000000000000000, -0.000000000000000000 ) ) ;
#315 = LINE ( 'NONE', #125, #238 ) ;
#316 =( NAMED_UNIT ( * ) SI_UNIT ( $, .STERADIAN. ) SOLID_ANGLE_UNIT ( ) );
#317 = EDGE_CURVE ( 'NONE', #326, #310, #104, .T. ) ;
#318 = AXIS2_PLACEMENT_3D ( 'NONE', #242, #313, #9 ) ;
#319 = DIRECTION ( 'NONE',  ( 0.000000000000000000, 0.000000000000000000, 1.000000000000000000 ) ) ;
#320 = CC_DESIGN_PERSON_AND_ORGANIZATION_ASSIGNMENT ( #156, #275, ( #127 ) ) ;
#321 = FACE_OUTER_BOUND ( 'NONE', #307, .T. ) ;
#322 = VERTEX_POINT ( 'NONE', #212 ) ;
#323 = ORIENTED_EDGE ( 'NONE', *, *, #115, .T. ) ;
#324 = CYLINDRICAL_SURFACE ( 'NONE', #108, 6.349999999999999645 ) ;
#325 = CC_DESIGN_APPROVAL ( #100, ( #152 ) ) ;
#326 = VERTEX_POINT ( 'NONE', #213 ) ;
#327 = DATE_AND_TIME ( #47, #256 ) ;
#328 = DIRECTION ( 'NONE',  ( -1.000000000000000000, -0.000000000000000000, -0.000000000000000000 ) ) ;
#329 = ORIENTED_EDGE ( 'NONE', *, *, #48, .F. ) ;
#330 = COORDINATED_UNIVERSAL_TIME_OFFSET ( 8, 0, .AHEAD. ) ;
#331 = VECTOR ( 'NONE', #314, 1000.000000000000000 ) ;
#332 = ORIENTED_EDGE ( 'NONE', *, *, #244, .F. ) ;
#333 = DATE_AND_TIME ( #225, #263 ) ;
#334 = CARTESIAN_POINT ( 'NONE',  ( -1.614212418857619014, 0.000000000000000000, 0.000000000000000000 ) ) ;
#335 = CARTESIAN_POINT ( 'NONE',  ( -1.500000000000000444, 0.000000000000000000, 0.000000000000000000 ) ) ;
ENDSEC;
END-ISO-10303-21;
